Вторник, 26 Мая 2009 года, 17:36
Просмотров: 4549 шт.

Музыка и кино → Играем Van Halen - Ain't Talkin' 'Bout Love


Играем Van Halen - Ain't Talkin' 'Bout Love

Красивая композиция от легенды рок-сцены Van Halen с табами, словами и видео.

*****


Слова
I heard the news baby, all about your disease
Yeah you may have all you want, baby, but I got somethin you need
Oh yeah, aint talkin bout love
My love is rotten to the core
Aint talkin bout love
Just like I told you before, yeah before
You know youre semi-good lookin, and on the streets again
Oh yeah you think youre really cookin baby, you better find yourself a friend
My friend, aint talkin bout love
My love is rotten to the core
Aint talkin bout love
Just like I told you before, uh before, uh before, before
Aint talkin bout love
Babe its rotten to the core
Aint talkin bout love
Just like I told you before, uh before
I been to the edge, an there I stood an looked down
You know I lost a lot of friends there baby, I got no time to mess around
Mmmm, so if you want it got to bleed for it baby
Yeah, got to got to bleed baby
Mmmm, you got to got to bleed baby
Hey, got to got to bleed baby
Aint talkin bout love
My love is rotten to the core
Aint talkin bout love
Just like I told you before, before, before
Aint talkin bout love
Dont wanna talk about love
Dont need to talk about love
Aint gonna talk about love, no more, no more, ah
Hey hey hey
Hey hey hey

Табы
"Стандартный" строй EBGDAE.
{n} - глушим струны правой рукой
~ - тремоло
* - кол-во повторений


Вступление играем 4 раза.
E ----------0-1-----3----------------
B ------1-------1(1)--3--------------
G --------2-------2------------------
D ----2------------------------------
A --0---------------------3~----2-3--
E ----------------------3------------


Куплет *1.

E -----------------------------------------------------^---^---^-^---
B --1-----1-----0-------------------1-----1-----0-----1-1/3-3/5-5^8--
G --2-2-2-2-2-2-0-------------------2-2-2-2-2-2-0--------------------
D --2-2-2-2-2-2-0-------------------2-2-2-2-2-2-0--------------------
A --0-0-0-0-0-0-----------3~----2-3-0-0-0-0-0-0----------------------
E -------------------------------------------------------------------


E ----------------------------------0------------------------------
B --1-----1-----0-------------------1-----1-----0------------^-^---
G --2-2-2-2-2-2-0-------------------2-2-2-2-2-2-0-----8(b)9--9-9--
D --2-2-2-2-2-2-0-------------------2-2-2-2-2-2-0------------------
A --0-0-0-0-0-0-----------3~----2-3-0-0-0-0-0-0--------------------
E -----------------------------------------------------------------


Припев: *4.

E ----------1-0-3--------------------
B ------1-------3--------------------
G --------2-----0--------------------
D ----2------------------------------
A --0-------------------3-3~----2-3--
E -----------------------------------



Куплет: *1.
Припев: *4.
Куплет: *1.

Соло: *1.

E -----6-8-9-8---------6-8-9-8---------------6-8-9-11-9-11----------
B -6-9-------------6-9---------6-9-6-----6-9------------------------
G ------------------------------------------------------------------
D ------------------------------------------------------------------
A ------------------------------------------------------------------
E ------------------------------------------------------------------


E ---13-16-13--16-13-16--13-16-13--13-16-13--16---------------------
B -------------------------------------------16-13-15--------------
G ------------------------------------------------------------------
D ------------------------------------------------------------------
A ------------------------------------------------------------------
E ------------------------------------------------------------------


Куплет: *1.
Проигрыш на "чистой" гитаре: *4.

E -----------1---3---------------------
B ------1------1---3-------------------
G --------2----------0-----------------
D ----2--------------------------------
A --0------------------------3~----2-3-
E -------------------------------------


Проигрыш с перегрузом: *4.

E ------------------------7-------
B -------------{5}------8---8-----
G -----------{5}----{7}-------7---
D ---------{5}--------------------
A --------------------------------
E --------------------------------


Куплет: *1.
Соло: *1.
Куплет: *2.

Добавляйте импровизацию. Развивайте технику. Удачи в творчестве!


А вот как играет маэстро Kent Сarlevi. Надеюсь и я когда-нибудь буду так играть свипы.


Эта запись отмечена тегами: гитара табулатуры табы van halen

maxim
Блог им. maxim
Рейтинг записи
  +5  

←Туда  Сюда→

Комментарии:

  • nomeNNescionomeNNescio  28 Мая#  
    +1! :)
    попробуем поиграемс ..может потом как то вместе залобаем? ;)...
  • maximmaxim  29 Мая#  
    Игорек, да я только за!!!...
  • nomeNNescionomeNNescio  30 Мая#  
    Отлично ..сегодня же приступаю к изучению )...

Авторизуйтесь или зарегистрируйтесь, чтобы иметь возможность комментировать записи!


Категории

Товары и Услуги  Авто  Здоровье  Hi-Tech  Разное  Fashion  Стройка  Общество  Домашний очаг  Бизнес  Образование  Кухня  Отдых  Флора и фауна  Музыка и кино  Туризм  Спорт  Позитив  География  Хобби  Наука и Техника  Карьера  Теория жизни  История  Знаменитости  Творчество  Отношения  Фольклор  Религия  Право  Астрономия  Мистика 


Облако тегов



TOP Блоггеры

profitinvestingprofitinvesting
Записей: 2462

webweb
Записей: 741

sorokasoroka
Записей: 611

ShaDeRzzShaDeRzz
Записей: 242

little_fairylittle_fairy
Записей: 164

nomeNNescionomeNNescio
Записей: 153

savchenkosavchenko
Записей: 98

BeautyPROFBeautyPROF
Записей: 94

Jetos2Jetos2
Записей: 82

DiezelSun2DiezelSun2
Записей: 73

ORCORC
Записей: 46

ooolesyaooolesya
Записей: 38

Весь список

Последние комменты

  • Krasser написал(а):
    Годные советы!
  • SKY-NIK написал(а):
    Лучшие капперы – рейтинг надежных прогнозистов в мире ставок на спорт Услугами капперов пользуются ...
  • Aftang написал(а):
    Каппер Kamon Bets ведет деятельность в двух плоскостях: сайт и Telegram-канал являются частью одного...
  • Artem_Masterov написал(а):
    Я биржами принципиально не пользуюсь для обмена, а вот обменники - это норм тема, там и курс получше...
  • Rubkovskaya написал(а):
    Аппаратные методы дарят серьезный комфорт при удалени волос, лично проверено.

Котлы тления Bullerjan - тепло в каждый дом